ISO-10303-21;
HEADER;
FILE_DESCRIPTION (( 'STEP AP203' ),
    '1' );
FILE_NAME ('Q-ZDWWP-R24-20-1064-SHM.STEP',
    '2020-12-22T09:01:58',
    ( '' ),
    ( '' ),
    'SwSTEP 2.0',
    'SolidWorks 2020',
    '' );
FILE_SCHEMA (( 'CONFIG_CONTROL_DESIGN' ));
ENDSEC;

DATA;
#1 = ORIENTED_EDGE ( 'NONE', *, *, #56, .T. ) ;
#2 = EDGE_CURVE ( 'NONE', #211, #71, #160, .T. ) ;
#3 = CARTESIAN_POINT ( 'NONE',  ( -1.614212418857619014, 1.224646799147353256E-15, -10.00000000000000000 ) ) ;
#4 = DIRECTION ( 'NONE',  ( -1.000000000000000000, -0.000000000000000000, -0.000000000000000000 ) ) ;
#5 = CARTESIAN_POINT ( 'NONE',  ( -3.000000000000000000, 0.000000000000000000, 0.000000000000000000 ) ) ;
#6 = ADVANCED_FACE ( 'NONE', ( #51 ), #96, .T. ) ;
#7 = DIRECTION ( 'NONE',  ( 0.000000000000000000, 0.000000000000000000, 1.000000000000000000 ) ) ;
#8 = LINE ( 'NONE', #212, #153 ) ;
#9 = DIRECTION ( 'NONE',  ( 0.000000000000000000, 0.000000000000000000, 1.000000000000000000 ) ) ;
#10 = APPROVAL_DATE_TIME ( #61, #113 ) ;
#11 = CARTESIAN_POINT ( 'NONE',  ( -2.500000000000000444, 0.000000000000000000, 0.000000000000000000 ) ) ;
#12 = EDGE_CURVE ( 'NONE', #283, #306, #76, .T. ) ;
#13 = PRODUCT ( 'Q-ZDWWP-R24-20-1064-SHM', 'Q-ZDWWP-R24-20-1064-SHM', '', ( #22 ) ) ;
#14 = AXIS2_PLACEMENT_3D ( 'NONE', #216, #58, #167 ) ;
#15 = CIRCLE ( 'NONE', #128, 12.69999999999999929 ) ;
#16 = CARTESIAN_POINT ( 'NONE',  ( 2.999999999999999112, 1.224646799147353256E-15, -10.00000000000000000 ) ) ;
#17 = CIRCLE ( 'NONE', #90, 12.69999999999999929 ) ;
#18 = CC_DESIGN_PERSON_AND_ORGANIZATION_ASSIGNMENT ( #178, #328, ( #88 ) ) ;
#19 = DATE_AND_TIME ( #251, #192 ) ;
#20 = LOCAL_TIME ( 17, 1, 58.00000000000000000, #44 ) ;
#21 = ORIENTED_EDGE ( 'NONE', *, *, #331, .F. ) ;
#22 = MECHANICAL_CONTEXT ( 'NONE', #41, 'mechanical' ) ;
#23 = PRODUCT_DEFINITION_SHAPE ( 'NONE', 'NONE',  #95 ) ;
#24 = ORIENTED_EDGE ( 'NONE', *, *, #317, .F. ) ;
#25 = COORDINATED_UNIVERSAL_TIME_OFFSET ( 8, 0, .AHEAD. ) ;
#26 = ADVANCED_FACE ( 'NONE', ( #304 ), #150, .F. ) ;
#27 = ORIENTED_EDGE ( 'NONE', *, *, #12, .T. ) ;
#28 = APPROVAL_ROLE ( '' ) ;
#29 = ORIENTED_EDGE ( 'NONE', *, *, #131, .F. ) ;
#30 = ADVANCED_FACE ( 'NONE', ( #262 ), #35, .F. ) ;
#31 = ORIENTED_EDGE ( 'NONE', *, *, #299, .T. ) ;
#32 = LINE ( 'NONE', #114, #202 ) ;
#33 = CIRCLE ( 'NONE', #100, 10.00000000000000000 ) ;
#34 = PLANE ( 'NONE',  #250 ) ;
#35 = CYLINDRICAL_SURFACE ( 'NONE', #229, 10.00000000000000000 ) ;
#36 = EDGE_CURVE ( 'NONE', #211, #206, #139, .T. ) ;
#37 = CARTESIAN_POINT ( 'NONE',  ( 2.999999999999999112, 0.000000000000000000, 10.00000000000000000 ) ) ;
#38 = FACE_OUTER_BOUND ( 'NONE', #335, .T. ) ;
#39 = EDGE_CURVE ( 'NONE', #125, #254, #17, .T. ) ;
#40 = DIRECTION ( 'NONE',  ( -1.000000000000000000, -0.000000000000000000, -0.000000000000000000 ) ) ;
#41 = APPLICATION_CONTEXT ( 'configuration controlled 3d designs of mechanical parts and assemblies' ) ;
#42 = APPROVAL_PERSON_ORGANIZATION ( #198, #113, #175 ) ;
#43 = PERSON_AND_ORGANIZATION_ROLE ( 'design_owner' ) ;
#44 = COORDINATED_UNIVERSAL_TIME_OFFSET ( 8, 0, .AHEAD. ) ;
#45 = AXIS2_PLACEMENT_3D ( 'NONE', #64, #267, #140 ) ;
#46 = ORIENTED_EDGE ( 'NONE', *, *, #272, .T. ) ;
#47 = COORDINATED_UNIVERSAL_TIME_OFFSET ( 8, 0, .AHEAD. ) ;
#48 = SECURITY_CLASSIFICATION_LEVEL ( 'unclassified' ) ;
#49 = DIRECTION ( 'NONE',  ( 1.000000000000000000, 0.000000000000000000, 0.000000000000000000 ) ) ;
#50 = ORIENTED_EDGE ( 'NONE', *, *, #317, .T. ) ;
#51 = FACE_OUTER_BOUND ( 'NONE', #282, .T. ) ;
#52 = EDGE_LOOP ( 'NONE', ( #21, #177 ) ) ;
#53 = DIRECTION ( 'NONE',  ( 0.000000000000000000, 0.000000000000000000, 1.000000000000000000 ) ) ;
#54 = CIRCLE ( 'NONE', #238, 10.00000000000000000 ) ;
#55 = DIRECTION ( 'NONE',  ( -1.000000000000000000, -0.000000000000000000, -0.000000000000000000 ) ) ;
#56 = EDGE_CURVE ( 'NONE', #206, #237, #142, .T. ) ;
#57 = FACE_OUTER_BOUND ( 'NONE', #277, .T. ) ;
#58 = DIRECTION ( 'NONE',  ( -1.000000000000000000, -0.000000000000000000, -0.000000000000000000 ) ) ;
#59 = FACE_BOUND ( 'NONE', #52, .T. ) ;
#60 = DIRECTION ( 'NONE',  ( 0.000000000000000000, 0.000000000000000000, 1.000000000000000000 ) ) ;
#61 = DATE_AND_TIME ( #149, #20 ) ;
#62 = CYLINDRICAL_SURFACE ( 'NONE', #106, 10.00000000000000000 ) ;
#63 = DIRECTION ( 'NONE',  ( 0.000000000000000000, 0.000000000000000000, 1.000000000000000000 ) ) ;
#64 = CARTESIAN_POINT ( 'NONE',  ( 2.999999999999999112, 0.000000000000000000, 0.000000000000000000 ) ) ;
#65 = CC_DESIGN_DATE_AND_TIME_ASSIGNMENT ( #330, #147, ( #95 ) ) ;
#66 = PERSON_AND_ORGANIZATION ( #322, #270 ) ;
#67 = DIRECTION ( 'NONE',  ( -1.000000000000000000, -0.000000000000000000, -0.000000000000000000 ) ) ;
#68 = PERSON_AND_ORGANIZATION_ROLE ( 'creator' ) ;
#69 = CIRCLE ( 'NONE', #121, 10.00000000000000000 ) ;
#70 = APPLICATION_CONTEXT ( 'configuration controlled 3d designs of mechanical parts and assemblies' ) ;
#71 = VERTEX_POINT ( 'NONE', #164 ) ;
#72 = CALENDAR_DATE ( 2020, 22, 12 ) ;
#73 = ORIENTED_EDGE ( 'NONE', *, *, #228, .T. ) ;
#74 = ORIENTED_EDGE ( 'NONE', *, *, #241, .F. ) ;
#75 = VERTEX_POINT ( 'NONE', #189 ) ;
#76 = LINE ( 'NONE', #302, #115 ) ;
#77 = AXIS2_PLACEMENT_3D ( 'NONE', #278, #307, #151 ) ;
#78 = ORIENTED_EDGE ( 'NONE', *, *, #155, .T. ) ;
#79 = EDGE_LOOP ( 'NONE', ( #329, #105, #73, #157 ) ) ;
#80 = CARTESIAN_POINT ( 'NONE',  ( -1.614212418857619014, 0.000000000000000000, 0.000000000000000000 ) ) ;
#81 = DIRECTION ( 'NONE',  ( -1.000000000000000000, -0.000000000000000000, -0.000000000000000000 ) ) ;
#82 = CIRCLE ( 'NONE', #293, 10.00000000000000000 ) ;
#83 = DIRECTION ( 'NONE',  ( 0.000000000000000000, 0.000000000000000000, 1.000000000000000000 ) ) ;
#84 = CARTESIAN_POINT ( 'NONE',  ( -2.500000000000000444, 1.224646799147353256E-15, -10.00000000000000000 ) ) ;
#85 = EDGE_CURVE ( 'NONE', #125, #75, #8, .T. ) ;
#86 = DIRECTION ( 'NONE',  ( 0.000000000000000000, 0.000000000000000000, 1.000000000000000000 ) ) ;
#87 = CARTESIAN_POINT ( 'NONE',  ( -3.000000000000000444, 0.000000000000000000, 10.00000000000000000 ) ) ;
#88 = PRODUCT_DEFINITION_FORMATION_WITH_SPECIFIED_SOURCE ( 'ANY', '', #13, .NOT_KNOWN. ) ;
#89 = DIRECTION ( 'NONE',  ( -1.000000000000000000, -0.000000000000000000, -0.000000000000000000 ) ) ;
#90 = AXIS2_PLACEMENT_3D ( 'NONE', #186, #288, #7 ) ;
#91 = DIRECTION ( 'NONE',  ( -1.000000000000000000, -0.000000000000000000, -0.000000000000000000 ) ) ;
#92 = CC_DESIGN_APPROVAL ( #320, ( #95 ) ) ;
#93 =( LENGTH_UNIT ( ) NAMED_UNIT ( * ) SI_UNIT ( .MILLI., .METRE. ) );
#94 = PERSON_AND_ORGANIZATION_ROLE ( 'classification_officer' ) ;
#95 = PRODUCT_DEFINITION ( 'UNKNOWN', '', #88, #295 ) ;
#96 = CYLINDRICAL_SURFACE ( 'NONE', #284, 12.69999999999999929 ) ;
#97 = PRODUCT_RELATED_PRODUCT_CATEGORY ( 'detail', '', ( #13 ) ) ;
#98 = DIRECTION ( 'NONE',  ( 0.000000000000000000, 0.000000000000000000, 1.000000000000000000 ) ) ;
#99 = APPROVAL_DATE_TIME ( #231, #291 ) ;
#100 = AXIS2_PLACEMENT_3D ( 'NONE', #116, #173, #268 ) ;
#101 = ORIENTED_EDGE ( 'NONE', *, *, #85, .T. ) ;
#102 = APPROVAL_STATUS ( 'not_yet_approved' ) ;
#103 = ORIENTED_EDGE ( 'NONE', *, *, #39, .T. ) ;
#104 = EDGE_LOOP ( 'NONE', ( #209, #27, #50, #182 ) ) ;
#105 = ORIENTED_EDGE ( 'NONE', *, *, #2, .T. ) ;
#106 = AXIS2_PLACEMENT_3D ( 'NONE', #269, #118, #60 ) ;
#107 = CARTESIAN_POINT ( 'NONE',  ( 2.500000000000000444, 10.00000000000000000, 0.000000000000000000 ) ) ;
#108 = ADVANCED_FACE ( 'NONE', ( #185 ), #34, .F. ) ;
#109 = DIRECTION ( 'NONE',  ( -1.000000000000000000, 0.000000000000000000, -0.000000000000000000 ) ) ;
#110 = CARTESIAN_POINT ( 'NONE',  ( 3.000000000000000000, 0.000000000000000000, 0.000000000000000000 ) ) ;
#111 = DIRECTION ( 'NONE',  ( -0.000000000000000000, 0.000000000000000000, 1.000000000000000000 ) ) ;
#112 = CARTESIAN_POINT ( 'NONE',  ( 3.000000000000000000, 0.000000000000000000, 12.69999999999999929 ) ) ;
#113 = APPROVAL ( #300, 'UNSPECIFIED' ) ;
#114 = CARTESIAN_POINT ( 'NONE',  ( -1.614212418857619014, 0.000000000000000000, 10.00000000000000000 ) ) ;
#115 = VECTOR ( 'NONE', #67, 1000.000000000000000 ) ;
#116 = CARTESIAN_POINT ( 'NONE',  ( -3.000000000000000444, 0.000000000000000000, 0.000000000000000000 ) ) ;
#117 = DIRECTION ( 'NONE',  ( 0.000000000000000000, 0.000000000000000000, 1.000000000000000000 ) ) ;
#118 = DIRECTION ( 'NONE',  ( -1.000000000000000000, -0.000000000000000000, -0.000000000000000000 ) ) ;
#119 = EDGE_CURVE ( 'NONE', #332, #75, #290, .T. ) ;
#120 = CARTESIAN_POINT ( 'NONE',  ( 2.999999999999999112, 0.000000000000000000, 0.000000000000000000 ) ) ;
#121 = AXIS2_PLACEMENT_3D ( 'NONE', #249, #40, #63 ) ;
#122 = EDGE_CURVE ( 'NONE', #254, #332, #261, .T. ) ;
#123 = DATE_TIME_ROLE ( 'classification_date' ) ;
#124 = ADVANCED_BREP_SHAPE_REPRESENTATION ( 'Q-ZDWWP-R24-20-1064-SHM', ( #248, #77 ), #220 ) ;
#125 = VERTEX_POINT ( 'NONE', #112 ) ;
#126 = ORIENTED_EDGE ( 'NONE', *, *, #39, .F. ) ;
#127 = CALENDAR_DATE ( 2020, 22, 12 ) ;
#128 = AXIS2_PLACEMENT_3D ( 'NONE', #110, #134, #83 ) ;
#129 = ORIENTED_EDGE ( 'NONE', *, *, #36, .T. ) ;
#130 = COORDINATED_UNIVERSAL_TIME_OFFSET ( 8, 0, .AHEAD. ) ;
#131 = EDGE_CURVE ( 'NONE', #75, #332, #314, .T. ) ;
#132 = ORIENTED_EDGE ( 'NONE', *, *, #258, .T. ) ;
#133 = VECTOR ( 'NONE', #81, 1000.000000000000000 ) ;
#134 = DIRECTION ( 'NONE',  ( -1.000000000000000000, -0.000000000000000000, -0.000000000000000000 ) ) ;
#135 = DIRECTION ( 'NONE',  ( 0.000000000000000000, 0.000000000000000000, 1.000000000000000000 ) ) ;
#136 = SHAPE_DEFINITION_REPRESENTATION ( #23, #124 ) ;
#137 = DIRECTION ( 'NONE',  ( 0.000000000000000000, 0.000000000000000000, 1.000000000000000000 ) ) ;
#138 = AXIS2_PLACEMENT_3D ( 'NONE', #313, #55, #86 ) ;
#139 = LINE ( 'NONE', #3, #133 ) ;
#140 = DIRECTION ( 'NONE',  ( 0.000000000000000000, 0.000000000000000000, 1.000000000000000000 ) ) ;
#141 = DIRECTION ( 'NONE',  ( 0.000000000000000000, 0.000000000000000000, 1.000000000000000000 ) ) ;
#142 = CIRCLE ( 'NONE', #138, 10.00000000000000000 ) ;
#143 = CYLINDRICAL_SURFACE ( 'NONE', #181, 10.00000000000000000 ) ;
#144 = LOCAL_TIME ( 17, 1, 58.00000000000000000, #130 ) ;
#145 = DIRECTION ( 'NONE',  ( 0.000000000000000000, 0.000000000000000000, -1.000000000000000000 ) ) ;
#146 = UNCERTAINTY_MEASURE_WITH_UNIT (LENGTH_MEASURE( 1.000000000000000082E-05 ), #93, 'distance_accuracy_value', 'NONE');
#147 = DATE_TIME_ROLE ( 'creation_date' ) ;
#148 = APPROVAL_PERSON_ORGANIZATION ( #227, #320, #201 ) ;
#149 = CALENDAR_DATE ( 2020, 22, 12 ) ;
#150 = PLANE ( 'NONE',  #199 ) ;
#151 = DIRECTION ( 'NONE',  ( 1.000000000000000000, 0.000000000000000000, 0.000000000000000000 ) ) ;
#152 = ORIENTED_EDGE ( 'NONE', *, *, #264, .T. ) ;
#153 = VECTOR ( 'NONE', #4, 1000.000000000000000 ) ;
#154 = PERSON_AND_ORGANIZATION ( #322, #270 ) ;
#155 = EDGE_CURVE ( 'NONE', #254, #125, #15, .T. ) ;
#156 = ORIENTED_EDGE ( 'NONE', *, *, #228, .F. ) ;
#157 = ORIENTED_EDGE ( 'NONE', *, *, #331, .T. ) ;
#158 = CC_DESIGN_PERSON_AND_ORGANIZATION_ASSIGNMENT ( #273, #43, ( #13 ) ) ;
#159 = CARTESIAN_POINT ( 'NONE',  ( -2.500000000000000444, 0.000000000000000000, 0.000000000000000000 ) ) ;
#160 = CIRCLE ( 'NONE', #236, 10.00000000000000000 ) ;
#161 = CC_DESIGN_DATE_AND_TIME_ASSIGNMENT ( #19, #123, ( #168 ) ) ;
#162 = CARTESIAN_POINT ( 'NONE',  ( -3.000000000000000444, 1.224646799147353256E-15, -10.00000000000000000 ) ) ;
#163 = AXIS2_PLACEMENT_3D ( 'NONE', #169, #196, #9 ) ;
#164 = CARTESIAN_POINT ( 'NONE',  ( -2.500000000000000444, 0.000000000000000000, 10.00000000000000000 ) ) ;
#165 = PLANE ( 'NONE',  #204 ) ;
#166 = ADVANCED_FACE ( 'NONE', ( #57, #215 ), #165, .F. ) ;
#167 = DIRECTION ( 'NONE',  ( 0.000000000000000000, 0.000000000000000000, 1.000000000000000000 ) ) ;
#168 = SECURITY_CLASSIFICATION ( '', '', #48 ) ;
#169 = CARTESIAN_POINT ( 'NONE',  ( 2.500000000000000888, 0.000000000000000000, 0.000000000000000000 ) ) ;
#170 = CARTESIAN_POINT ( 'NONE',  ( -1.614212418857619014, 0.000000000000000000, 0.000000000000000000 ) ) ;
#171 = FACE_OUTER_BOUND ( 'NONE', #252, .T. ) ;
#172 = AXIS2_PLACEMENT_3D ( 'NONE', #190, #292, #260 ) ;
#173 = DIRECTION ( 'NONE',  ( -1.000000000000000000, -0.000000000000000000, -0.000000000000000000 ) ) ;
#174 = CC_DESIGN_PERSON_AND_ORGANIZATION_ASSIGNMENT ( #154, #94, ( #168 ) ) ;
#175 = APPROVAL_ROLE ( '' ) ;
#176 = VECTOR ( 'NONE', #298, 1000.000000000000000 ) ;
#177 = ORIENTED_EDGE ( 'NONE', *, *, #56, .F. ) ;
#178 = PERSON_AND_ORGANIZATION ( #322, #270 ) ;
#179 = VECTOR ( 'NONE', #242, 1000.000000000000000 ) ;
#180 = ORIENTED_EDGE ( 'NONE', *, *, #122, .F. ) ;
#181 = AXIS2_PLACEMENT_3D ( 'NONE', #170, #222, #141 ) ;
#182 = ORIENTED_EDGE ( 'NONE', *, *, #258, .F. ) ;
#183 = VERTEX_POINT ( 'NONE', #37 ) ;
#184 = ORIENTED_EDGE ( 'NONE', *, *, #85, .F. ) ;
#185 = FACE_OUTER_BOUND ( 'NONE', #280, .T. ) ;
#186 = CARTESIAN_POINT ( 'NONE',  ( 3.000000000000000000, 0.000000000000000000, 0.000000000000000000 ) ) ;
#187 = CC_DESIGN_APPROVAL ( #291, ( #88 ) ) ;
#188 = CARTESIAN_POINT ( 'NONE',  ( -2.500000000000000444, 10.00000000000000000, 0.000000000000000000 ) ) ;
#189 = CARTESIAN_POINT ( 'NONE',  ( -3.000000000000000000, 0.000000000000000000, 12.69999999999999929 ) ) ;
#190 = CARTESIAN_POINT ( 'NONE',  ( -3.000000000000000000, 10.00000000000000000, 0.000000000000000000 ) ) ;
#191 = CARTESIAN_POINT ( 'NONE',  ( 2.500000000000000888, 0.000000000000000000, 10.00000000000000000 ) ) ;
#192 = LOCAL_TIME ( 17, 1, 58.00000000000000000, #207 ) ;
#193 = DIRECTION ( 'NONE',  ( 1.000000000000000000, 0.000000000000000000, 0.000000000000000000 ) ) ;
#194 = CC_DESIGN_PERSON_AND_ORGANIZATION_ASSIGNMENT ( #303, #68, ( #95 ) ) ;
#195 = CARTESIAN_POINT ( 'NONE',  ( -3.000000000000000000, 1.555301434917138433E-15, -12.69999999999999929 ) ) ;
#196 = DIRECTION ( 'NONE',  ( -1.000000000000000000, -0.000000000000000000, -0.000000000000000000 ) ) ;
#197 = APPLICATION_PROTOCOL_DEFINITION ( 'international standard', 'config_control_design', 1994, #41 ) ;
#198 = PERSON_AND_ORGANIZATION ( #322, #270 ) ;
#199 = AXIS2_PLACEMENT_3D ( 'NONE', #107, #109, #111 ) ;
#200 = ORIENTED_EDGE ( 'NONE', *, *, #299, .F. ) ;
#201 = APPROVAL_ROLE ( '' ) ;
#202 = VECTOR ( 'NONE', #89, 1000.000000000000000 ) ;
#203 = ORIENTED_EDGE ( 'NONE', *, *, #155, .F. ) ;
#204 = AXIS2_PLACEMENT_3D ( 'NONE', #316, #213, #263 ) ;
#205 = PERSON_AND_ORGANIZATION_ROLE ( 'creator' ) ;
#206 = VERTEX_POINT ( 'NONE', #162 ) ;
#207 = COORDINATED_UNIVERSAL_TIME_OFFSET ( 8, 0, .AHEAD. ) ;
#208 = ORIENTED_EDGE ( 'NONE', *, *, #12, .F. ) ;
#209 = ORIENTED_EDGE ( 'NONE', *, *, #272, .F. ) ;
#210 = CC_DESIGN_APPROVAL ( #113, ( #168 ) ) ;
#211 = VERTEX_POINT ( 'NONE', #84 ) ;
#212 = CARTESIAN_POINT ( 'NONE',  ( -1.614212418857619014, 0.000000000000000000, 12.69999999999999929 ) ) ;
#213 = DIRECTION ( 'NONE',  ( -1.000000000000000000, 0.000000000000000000, -0.000000000000000000 ) ) ;
#214 = CARTESIAN_POINT ( 'NONE',  ( -1.614212418857619014, 1.555301434917138433E-15, -12.69999999999999929 ) ) ;
#215 = FACE_BOUND ( 'NONE', #334, .T. ) ;
#216 = CARTESIAN_POINT ( 'NONE',  ( -1.614212418857619014, 0.000000000000000000, 0.000000000000000000 ) ) ;
#217 = CYLINDRICAL_SURFACE ( 'NONE', #246, 12.69999999999999929 ) ;
#218 = ADVANCED_FACE ( 'NONE', ( #38 ), #239, .F. ) ;
#219 = CARTESIAN_POINT ( 'NONE',  ( -1.614212418857619014, 0.000000000000000000, 0.000000000000000000 ) ) ;
#220 =( GEOMETRIC_REPRESENTATION_CONTEXT ( 3 ) GLOBAL_UNCERTAINTY_ASSIGNED_CONTEXT ( ( #146 ) ) GLOBAL_UNIT_ASSIGNED_CONTEXT ( ( #93, #247, #326 ) ) REPRESENTATION_CONTEXT ( 'NONE', 'WORKASPACE' ) );
#221 = CC_DESIGN_PERSON_AND_ORGANIZATION_ASSIGNMENT ( #225, #205, ( #88 ) ) ;
#222 = DIRECTION ( 'NONE',  ( -1.000000000000000000, -0.000000000000000000, -0.000000000000000000 ) ) ;
#223 = ADVANCED_FACE ( 'NONE', ( #59, #265 ), #243, .F. ) ;
#224 = FACE_OUTER_BOUND ( 'NONE', #79, .T. ) ;
#225 = PERSON_AND_ORGANIZATION ( #322, #270 ) ;
#226 = DIRECTION ( 'NONE',  ( 0.000000000000000000, 0.000000000000000000, -1.000000000000000000 ) ) ;
#227 = PERSON_AND_ORGANIZATION ( #322, #270 ) ;
#228 = EDGE_CURVE ( 'NONE', #71, #237, #32, .T. ) ;
#229 = AXIS2_PLACEMENT_3D ( 'NONE', #80, #287, #137 ) ;
#230 = CARTESIAN_POINT ( 'NONE',  ( -1.614212418857619014, 0.000000000000000000, 0.000000000000000000 ) ) ;
#231 = DATE_AND_TIME ( #72, #144 ) ;
#232 = AXIS2_PLACEMENT_3D ( 'NONE', #5, #240, #53 ) ;
#233 = CC_DESIGN_SECURITY_CLASSIFICATION ( #168, ( #88 ) ) ;
#234 = EDGE_LOOP ( 'NONE', ( #308, #235 ) ) ;
#235 = ORIENTED_EDGE ( 'NONE', *, *, #119, .T. ) ;
#236 = AXIS2_PLACEMENT_3D ( 'NONE', #159, #49, #226 ) ;
#237 = VERTEX_POINT ( 'NONE', #87 ) ;
#238 = AXIS2_PLACEMENT_3D ( 'NONE', #11, #193, #145 ) ;
#239 = CYLINDRICAL_SURFACE ( 'NONE', #14, 10.00000000000000000 ) ;
#240 = DIRECTION ( 'NONE',  ( -1.000000000000000000, -0.000000000000000000, -0.000000000000000000 ) ) ;
#241 = EDGE_CURVE ( 'NONE', #256, #306, #323, .T. ) ;
#242 = DIRECTION ( 'NONE',  ( -1.000000000000000000, -0.000000000000000000, -0.000000000000000000 ) ) ;
#243 = PLANE ( 'NONE',  #172 ) ;
#244 = ADVANCED_FACE ( 'NONE', ( #171 ), #217, .T. ) ;
#245 = CARTESIAN_POINT ( 'NONE',  ( -1.614212418857619014, 0.000000000000000000, 10.00000000000000000 ) ) ;
#246 = AXIS2_PLACEMENT_3D ( 'NONE', #219, #91, #294 ) ;
#247 =( NAMED_UNIT ( * ) PLANE_ANGLE_UNIT ( ) SI_UNIT ( $, .RADIAN. ) );
#248 = MANIFOLD_SOLID_BREP ( 'Ðý×', #301 ) ;
#249 = CARTESIAN_POINT ( 'NONE',  ( 2.500000000000000888, 0.000000000000000000, 0.000000000000000000 ) ) ;
#250 = AXIS2_PLACEMENT_3D ( 'NONE', #188, #315, #318 ) ;
#251 = CALENDAR_DATE ( 2020, 22, 12 ) ;
#252 = EDGE_LOOP ( 'NONE', ( #180, #78, #101, #275 ) ) ;
#253 = APPROVAL_DATE_TIME ( #333, #320 ) ;
#254 = VERTEX_POINT ( 'NONE', #321 ) ;
#255 = CALENDAR_DATE ( 2020, 22, 12 ) ;
#256 = VERTEX_POINT ( 'NONE', #191 ) ;
#257 = ORIENTED_EDGE ( 'NONE', *, *, #122, .T. ) ;
#258 = EDGE_CURVE ( 'NONE', #183, #256, #324, .T. ) ;
#259 = EDGE_LOOP ( 'NONE', ( #208, #200, #132, #279 ) ) ;
#260 = DIRECTION ( 'NONE',  ( 0.000000000000000000, 0.000000000000000000, -1.000000000000000000 ) ) ;
#261 = LINE ( 'NONE', #214, #179 ) ;
#262 = FACE_OUTER_BOUND ( 'NONE', #104, .T. ) ;
#263 = DIRECTION ( 'NONE',  ( -0.000000000000000000, 0.000000000000000000, 1.000000000000000000 ) ) ;
#264 = EDGE_CURVE ( 'NONE', #71, #211, #54, .T. ) ;
#265 = FACE_OUTER_BOUND ( 'NONE', #234, .T. ) ;
#266 = LOCAL_TIME ( 17, 1, 58.00000000000000000, #25 ) ;
#267 = DIRECTION ( 'NONE',  ( -1.000000000000000000, -0.000000000000000000, -0.000000000000000000 ) ) ;
#268 = DIRECTION ( 'NONE',  ( 0.000000000000000000, 0.000000000000000000, 1.000000000000000000 ) ) ;
#269 = CARTESIAN_POINT ( 'NONE',  ( -1.614212418857619014, 0.000000000000000000, 0.000000000000000000 ) ) ;
#270 = ORGANIZATION ( 'UNSPECIFIED', 'UNSPECIFIED', '' ) ;
#271 = DIRECTION ( 'NONE',  ( -1.000000000000000000, -0.000000000000000000, -0.000000000000000000 ) ) ;
#272 = EDGE_CURVE ( 'NONE', #283, #183, #82, .T. ) ;
#273 = PERSON_AND_ORGANIZATION ( #322, #270 ) ;
#274 = LOCAL_TIME ( 17, 1, 58.00000000000000000, #47 ) ;
#275 = ORIENTED_EDGE ( 'NONE', *, *, #119, .F. ) ;
#276 = APPLICATION_PROTOCOL_DEFINITION ( 'international standard', 'config_control_design', 1994, #70 ) ;
#277 = EDGE_LOOP ( 'NONE', ( #126, #203 ) ) ;
#278 = CARTESIAN_POINT ( 'NONE',  ( 0.000000000000000000, 0.000000000000000000, 0.000000000000000000 ) ) ;
#279 = ORIENTED_EDGE ( 'NONE', *, *, #241, .T. ) ;
#280 = EDGE_LOOP ( 'NONE', ( #310, #312 ) ) ;
#281 = EDGE_LOOP ( 'NONE', ( #74, #24 ) ) ;
#282 = EDGE_LOOP ( 'NONE', ( #103, #257, #29, #184 ) ) ;
#283 = VERTEX_POINT ( 'NONE', #16 ) ;
#284 = AXIS2_PLACEMENT_3D ( 'NONE', #230, #309, #98 ) ;
#285 = CARTESIAN_POINT ( 'NONE',  ( -3.000000000000000000, 0.000000000000000000, 0.000000000000000000 ) ) ;
#286 = CIRCLE ( 'NONE', #45, 10.00000000000000000 ) ;
#287 = DIRECTION ( 'NONE',  ( -1.000000000000000000, -0.000000000000000000, -0.000000000000000000 ) ) ;
#288 = DIRECTION ( 'NONE',  ( -1.000000000000000000, -0.000000000000000000, -0.000000000000000000 ) ) ;
#289 = DIRECTION ( 'NONE',  ( -1.000000000000000000, -0.000000000000000000, -0.000000000000000000 ) ) ;
#290 = CIRCLE ( 'NONE', #319, 12.69999999999999929 ) ;
#291 = APPROVAL ( #102, 'UNSPECIFIED' ) ;
#292 = DIRECTION ( 'NONE',  ( 1.000000000000000000, 0.000000000000000000, 0.000000000000000000 ) ) ;
#293 = AXIS2_PLACEMENT_3D ( 'NONE', #120, #271, #117 ) ;
#294 = DIRECTION ( 'NONE',  ( 0.000000000000000000, 0.000000000000000000, 1.000000000000000000 ) ) ;
#295 = DESIGN_CONTEXT ( 'detailed design', #70, 'design' ) ;
#296 = CARTESIAN_POINT ( 'NONE',  ( 2.500000000000000888, 1.224646799147353256E-15, -10.00000000000000000 ) ) ;
#297 = ADVANCED_FACE ( 'NONE', ( #224 ), #62, .F. ) ;
#298 = DIRECTION ( 'NONE',  ( -1.000000000000000000, -0.000000000000000000, -0.000000000000000000 ) ) ;
#299 = EDGE_CURVE ( 'NONE', #183, #283, #286, .T. ) ;
#300 = APPROVAL_STATUS ( 'not_yet_approved' ) ;
#301 = CLOSED_SHELL ( 'NONE', ( #6, #218, #30, #26, #327, #297, #223, #244, #166, #108 ) ) ;
#302 = CARTESIAN_POINT ( 'NONE',  ( -1.614212418857619014, 1.224646799147353256E-15, -10.00000000000000000 ) ) ;
#303 = PERSON_AND_ORGANIZATION ( #322, #270 ) ;
#304 = FACE_OUTER_BOUND ( 'NONE', #281, .T. ) ;
#305 = APPROVAL_STATUS ( 'not_yet_approved' ) ;
#306 = VERTEX_POINT ( 'NONE', #296 ) ;
#307 = DIRECTION ( 'NONE',  ( 0.000000000000000000, 0.000000000000000000, 1.000000000000000000 ) ) ;
#308 = ORIENTED_EDGE ( 'NONE', *, *, #131, .T. ) ;
#309 = DIRECTION ( 'NONE',  ( -1.000000000000000000, -0.000000000000000000, -0.000000000000000000 ) ) ;
#310 = ORIENTED_EDGE ( 'NONE', *, *, #264, .F. ) ;
#311 = APPROVAL_PERSON_ORGANIZATION ( #66, #291, #28 ) ;
#312 = ORIENTED_EDGE ( 'NONE', *, *, #2, .F. ) ;
#313 = CARTESIAN_POINT ( 'NONE',  ( -3.000000000000000444, 0.000000000000000000, 0.000000000000000000 ) ) ;
#314 = CIRCLE ( 'NONE', #232, 12.69999999999999929 ) ;
#315 = DIRECTION ( 'NONE',  ( 1.000000000000000000, 0.000000000000000000, 0.000000000000000000 ) ) ;
#316 = CARTESIAN_POINT ( 'NONE',  ( 2.999999999999999112, 12.69999999999999929, 0.000000000000000000 ) ) ;
#317 = EDGE_CURVE ( 'NONE', #306, #256, #69, .T. ) ;
#318 = DIRECTION ( 'NONE',  ( 0.000000000000000000, 0.000000000000000000, -1.000000000000000000 ) ) ;
#319 = AXIS2_PLACEMENT_3D ( 'NONE', #285, #289, #135 ) ;
#320 = APPROVAL ( #305, 'UNSPECIFIED' ) ;
#321 = CARTESIAN_POINT ( 'NONE',  ( 3.000000000000000000, 1.555301434917138433E-15, -12.69999999999999929 ) ) ;
#322 = PERSON ( 'UNSPECIFIED', 'UNSPECIFIED', 'UNSPECIFIED', ('UNSPECIFIED'), ('UNSPECIFIED'), ('UNSPECIFIED') ) ;
#323 = CIRCLE ( 'NONE', #163, 10.00000000000000000 ) ;
#324 = LINE ( 'NONE', #245, #176 ) ;
#325 = FACE_OUTER_BOUND ( 'NONE', #259, .T. ) ;
#326 =( NAMED_UNIT ( * ) SI_UNIT ( $, .STERADIAN. ) SOLID_ANGLE_UNIT ( ) );
#327 = ADVANCED_FACE ( 'NONE', ( #325 ), #143, .F. ) ;
#328 = PERSON_AND_ORGANIZATION_ROLE ( 'design_supplier' ) ;
#329 = ORIENTED_EDGE ( 'NONE', *, *, #36, .F. ) ;
#330 = DATE_AND_TIME ( #127, #266 ) ;
#331 = EDGE_CURVE ( 'NONE', #237, #206, #33, .T. ) ;
#332 = VERTEX_POINT ( 'NONE', #195 ) ;
#333 = DATE_AND_TIME ( #255, #274 ) ;
#334 = EDGE_LOOP ( 'NONE', ( #31, #46 ) ) ;
#335 = EDGE_LOOP ( 'NONE', ( #152, #129, #1, #156 ) ) ;
ENDSEC;
END-ISO-10303-21;
